ISO-10303-21;
HEADER;
FILE_DESCRIPTION (( 'STEP AP203' ),
    '1' );
FILE_NAME ('BK7-LPBSC-12.7-915.STEP',
    '2020-12-22T03:12:19',
    ( '' ),
    ( '' ),
    'SwSTEP 2.0',
    'SolidWorks 2020',
    '' );
FILE_SCHEMA (( 'CONFIG_CONTROL_DESIGN' ));
ENDSEC;

DATA;
#1 = ORIENTED_EDGE ( 'NONE', *, *, #98, .F. ) ;
#2 = ORIENTED_EDGE ( 'NONE', *, *, #82, .F. ) ;
#3 = PERSON ( 'UNSPECIFIED', 'UNSPECIFIED', 'UNSPECIFIED', ('UNSPECIFIED'), ('UNSPECIFIED'), ('UNSPECIFIED') ) ;
#4 = DIRECTION ( 'NONE',  ( -1.000000000000000000, -6.829619984160658046E-17, 0.000000000000000000 ) ) ;
#5 = VERTEX_POINT ( 'NONE', #245 ) ;
#6 = VERTEX_POINT ( 'NONE', #110 ) ;
#7 = EDGE_LOOP ( 'NONE', ( #36, #85, #58, #60 ) ) ;
#8 = PERSON_AND_ORGANIZATION ( #3, #22 ) ;
#9 = CARTESIAN_POINT ( 'NONE',  ( -6.349999999999998757, -6.349999999999997868, 6.349999999999999645 ) ) ;
#10 =( NAMED_UNIT ( * ) SI_UNIT ( $, .STERADIAN. ) SOLID_ANGLE_UNIT ( ) );
#11 = DESIGN_CONTEXT ( 'detailed design', #283, 'design' ) ;
#12 = DATE_AND_TIME ( #155, #221 ) ;
#13 = CARTESIAN_POINT ( 'NONE',  ( -6.349999999999999645, -6.350000000000000533, 6.349999999999999645 ) ) ;
#14 = ADVANCED_FACE ( 'NONE', ( #307 ), #120, .F. ) ;
#15 = VECTOR ( 'NONE', #282, 1000.000000000000000 ) ;
#16 = PERSON_AND_ORGANIZATION ( #3, #22 ) ;
#17 = LINE ( 'NONE', #18, #34 ) ;
#18 = CARTESIAN_POINT ( 'NONE',  ( -6.349999999999998757, -6.349999999999997868, 6.349999999999999645 ) ) ;
#19 = DATE_TIME_ROLE ( 'classification_date' ) ;
#20 = EDGE_CURVE ( 'NONE', #308, #87, #37, .T. ) ;
#21 = LINE ( 'NONE', #101, #50 ) ;
#22 = ORGANIZATION ( 'UNSPECIFIED', 'UNSPECIFIED', '' ) ;
#23 = APPROVAL ( #153, 'UNSPECIFIED' ) ;
#24 = CARTESIAN_POINT ( 'NONE',  ( 6.349999999999998757, 6.349999999999998757, 6.349999999999999645 ) ) ;
#25 = CARTESIAN_POINT ( 'NONE',  ( 6.349999999999998757, 6.349999999999998757, -6.349999999999999645 ) ) ;
#26 = DIRECTION ( 'NONE',  ( 1.000000000000000000, 0.000000000000000000, 0.000000000000000000 ) ) ;
#27 = VERTEX_POINT ( 'NONE', #62 ) ;
#28 = LOCAL_TIME ( 11, 12, 19.00000000000000000, #267 ) ;
#29 = LINE ( 'NONE', #136, #95 ) ;
#30 = PLANE ( 'NONE',  #268 ) ;
#31 = ORIENTED_EDGE ( 'NONE', *, *, #20, .T. ) ;
#32 = ADVANCED_FACE ( 'NONE', ( #122 ), #220, .T. ) ;
#33 = ORIENTED_EDGE ( 'NONE', *, *, #47, .T. ) ;
#34 = VECTOR ( 'NONE', #179, 1000.000000000000000 ) ;
#35 = PERSON_AND_ORGANIZATION ( #3, #22 ) ;
#36 = ORIENTED_EDGE ( 'NONE', *, *, #233, .T. ) ;
#37 = LINE ( 'NONE', #219, #68 ) ;
#38 = VECTOR ( 'NONE', #254, 1000.000000000000000 ) ;
#39 = EDGE_CURVE ( 'NONE', #217, #91, #154, .T. ) ;
#40 = DIRECTION ( 'NONE',  ( 0.7071067811865475727, 0.7071067811865475727, 0.000000000000000000 ) ) ;
#41 = PERSON_AND_ORGANIZATION_ROLE ( 'design_owner' ) ;
#42 = LINE ( 'NONE', #13, #38 ) ;
#43 = VECTOR ( 'NONE', #232, 1000.000000000000000 ) ;
#44 = APPROVAL_ROLE ( '' ) ;
#45 = CARTESIAN_POINT ( 'NONE',  ( 6.349999999999999645, -6.350000000000000533, -6.349999999999999645 ) ) ;
#46 = DIRECTION ( 'NONE',  ( 0.000000000000000000, -0.000000000000000000, 1.000000000000000000 ) ) ;
#47 = EDGE_CURVE ( 'NONE', #5, #175, #278, .T. ) ;
#48 = MANIFOLD_SOLID_BREP ( '¾µÏ', #132 ) ;
#49 = DIRECTION ( 'NONE',  ( -0.000000000000000000, -0.000000000000000000, -1.000000000000000000 ) ) ;
#50 = VECTOR ( 'NONE', #230, 1000.000000000000000 ) ;
#51 = VECTOR ( 'NONE', #125, 1000.000000000000000 ) ;
#52 = CARTESIAN_POINT ( 'NONE',  ( -6.349999999999998757, -6.349999999999997868, -6.349999999999999645 ) ) ;
#53 = CARTESIAN_POINT ( 'NONE',  ( 0.000000000000000000, 0.000000000000000000, -6.349999999999999645 ) ) ;
#54 = EDGE_LOOP ( 'NONE', ( #191, #288, #90 ) ) ;
#55 = FACE_OUTER_BOUND ( 'NONE', #238, .T. ) ;
#56 = LINE ( 'NONE', #25, #43 ) ;
#57 = ADVANCED_FACE ( 'NONE', ( #300 ), #156, .F. ) ;
#58 = ORIENTED_EDGE ( 'NONE', *, *, #314, .F. ) ;
#59 = CC_DESIGN_PERSON_AND_ORGANIZATION_ASSIGNMENT ( #61, #244, ( #208 ) ) ;
#60 = ORIENTED_EDGE ( 'NONE', *, *, #70, .T. ) ;
#61 = PERSON_AND_ORGANIZATION ( #3, #22 ) ;
#62 = CARTESIAN_POINT ( 'NONE',  ( -6.350000000000002309, 6.350000000000001421, 6.349999999999999645 ) ) ;
#63 = CLOSED_SHELL ( 'NONE', ( #94, #57, #226, #32, #203 ) ) ;
#64 = LOCAL_TIME ( 11, 12, 19.00000000000000000, #81 ) ;
#65 = APPLICATION_PROTOCOL_DEFINITION ( 'international standard', 'config_control_design', 1994, #283 ) ;
#66 = VERTEX_POINT ( 'NONE', #75 ) ;
#67 = DIRECTION ( 'NONE',  ( 1.000000000000000000, 0.000000000000000000, 0.000000000000000000 ) ) ;
#68 = VECTOR ( 'NONE', #196, 1000.000000000000000 ) ;
#69 = CC_DESIGN_APPROVAL ( #269, ( #235 ) ) ;
#70 = EDGE_CURVE ( 'NONE', #175, #66, #276, .T. ) ;
#71 = CARTESIAN_POINT ( 'NONE',  ( 6.349999999999996980, 6.349999999999996980, 6.349999999999999645 ) ) ;
#72 = DIRECTION ( 'NONE',  ( 0.000000000000000000, 0.000000000000000000, 1.000000000000000000 ) ) ;
#73 = CARTESIAN_POINT ( 'NONE',  ( -6.349999999999999645, -6.350000000000000533, 6.349999999999999645 ) ) ;
#74 = APPROVAL_DATE_TIME ( #317, #269 ) ;
#75 = CARTESIAN_POINT ( 'NONE',  ( 6.349999999999998757, 6.349999999999998757, -6.349999999999999645 ) ) ;
#76 = APPROVAL_PERSON_ORGANIZATION ( #79, #301, #205 ) ;
#77 = CARTESIAN_POINT ( 'NONE',  ( 6.349999999999996980, 6.349999999999996980, 6.349999999999999645 ) ) ;
#78 = LINE ( 'NONE', #185, #108 ) ;
#79 = PERSON_AND_ORGANIZATION ( #3, #22 ) ;
#80 = CARTESIAN_POINT ( 'NONE',  ( 0.000000000000000000, 0.000000000000000000, 6.349999999999999645 ) ) ;
#81 = COORDINATED_UNIVERSAL_TIME_OFFSET ( 8, 0, .AHEAD. ) ;
#82 = EDGE_CURVE ( 'NONE', #5, #91, #21, .T. ) ;
#83 = DIRECTION ( 'NONE',  ( -2.220446049250312588E-16, 1.000000000000000000, 0.000000000000000000 ) ) ;
#84 = CARTESIAN_POINT ( 'NONE',  ( -6.349999999999999645, -6.350000000000000533, -6.349999999999999645 ) ) ;
#85 = ORIENTED_EDGE ( 'NONE', *, *, #144, .F. ) ;
#86 = PLANE ( 'NONE',  #99 ) ;
#87 = VERTEX_POINT ( 'NONE', #180 ) ;
#88 = AXIS2_PLACEMENT_3D ( 'NONE', #211, #4, #162 ) ;
#89 = CC_DESIGN_DATE_AND_TIME_ASSIGNMENT ( #126, #146, ( #235 ) ) ;
#90 = ORIENTED_EDGE ( 'NONE', *, *, #39, .F. ) ;
#91 = VERTEX_POINT ( 'NONE', #45 ) ;
#92 = PERSON_AND_ORGANIZATION_ROLE ( 'creator' ) ;
#93 = ORIENTED_EDGE ( 'NONE', *, *, #284, .T. ) ;
#94 = ADVANCED_FACE ( 'NONE', ( #131 ), #129, .F. ) ;
#95 = VECTOR ( 'NONE', #188, 1000.000000000000000 ) ;
#96 = COORDINATED_UNIVERSAL_TIME_OFFSET ( 8, 0, .AHEAD. ) ;
#97 = ADVANCED_BREP_SHAPE_REPRESENTATION ( 'BK7-LPBSC-12.7-915', ( #274, #48, #137 ), #178 ) ;
#98 = EDGE_CURVE ( 'NONE', #243, #27, #17, .T. ) ;
#99 = AXIS2_PLACEMENT_3D ( 'NONE', #257, #166, #187 ) ;
#100 = CARTESIAN_POINT ( 'NONE',  ( -6.350000000000002309, 6.350000000000001421, 6.349999999999999645 ) ) ;
#101 = CARTESIAN_POINT ( 'NONE',  ( 6.349999999999999645, -6.350000000000000533, 6.349999999999999645 ) ) ;
#102 = DIRECTION ( 'NONE',  ( -0.000000000000000000, 0.000000000000000000, 1.000000000000000000 ) ) ;
#103 = DIRECTION ( 'NONE',  ( -2.903408047666378392E-16, -1.000000000000000000, 0.000000000000000000 ) ) ;
#104 = DATE_AND_TIME ( #207, #303 ) ;
#105 = FACE_OUTER_BOUND ( 'NONE', #292, .T. ) ;
#106 = EDGE_CURVE ( 'NONE', #308, #243, #272, .T. ) ;
#107 = LINE ( 'NONE', #189, #172 ) ;
#108 = VECTOR ( 'NONE', #160, 1000.000000000000000 ) ;
#109 = FACE_OUTER_BOUND ( 'NONE', #236, .T. ) ;
#110 = CARTESIAN_POINT ( 'NONE',  ( -6.350000000000002309, 6.350000000000001421, -6.349999999999999645 ) ) ;
#111 = CARTESIAN_POINT ( 'NONE',  ( -6.349999999999998757, -6.349999999999997868, 6.349999999999999645 ) ) ;
#112 = EDGE_LOOP ( 'NONE', ( #210, #2, #212, #261 ) ) ;
#113 = EDGE_LOOP ( 'NONE', ( #142, #164, #169, #294 ) ) ;
#114 = ADVANCED_FACE ( 'NONE', ( #158 ), #320, .F. ) ;
#115 = VERTEX_POINT ( 'NONE', #73 ) ;
#116 = VECTOR ( 'NONE', #182, 1000.000000000000000 ) ;
#117 = ORIENTED_EDGE ( 'NONE', *, *, #47, .F. ) ;
#118 = VECTOR ( 'NONE', #199, 1000.000000000000000 ) ;
#119 = APPLICATION_PROTOCOL_DEFINITION ( 'international standard', 'config_control_design', 1994, #246 ) ;
#120 = PLANE ( 'NONE',  #177 ) ;
#121 = PERSON_AND_ORGANIZATION ( #3, #22 ) ;
#122 = FACE_OUTER_BOUND ( 'NONE', #241, .T. ) ;
#123 = EDGE_CURVE ( 'NONE', #27, #308, #78, .T. ) ;
#124 = APPROVAL_PERSON_ORGANIZATION ( #8, #23, #44 ) ;
#125 = DIRECTION ( 'NONE',  ( 0.000000000000000000, 0.000000000000000000, -1.000000000000000000 ) ) ;
#126 = DATE_AND_TIME ( #181, #28 ) ;
#127 = DIRECTION ( 'NONE',  ( -6.829619984160658046E-17, 1.000000000000000000, -0.000000000000000000 ) ) ;
#128 = EDGE_CURVE ( 'NONE', #115, #5, #42, .T. ) ;
#129 = PLANE ( 'NONE',  #280 ) ;
#130 = PRODUCT_RELATED_PRODUCT_CATEGORY ( 'detail', '', ( #213 ) ) ;
#131 = FACE_OUTER_BOUND ( 'NONE', #7, .T. ) ;
#132 = CLOSED_SHELL ( 'NONE', ( #149, #14, #114, #193, #239 ) ) ;
#133 = VECTOR ( 'NONE', #285, 1000.000000000000114 ) ;
#134 = CARTESIAN_POINT ( 'NONE',  ( -6.349999999999999645, -6.350000000000000533, 6.349999999999999645 ) ) ;
#135 = CARTESIAN_POINT ( 'NONE',  ( 6.349999999999996980, 6.349999999999996980, 6.349999999999999645 ) ) ;
#136 = CARTESIAN_POINT ( 'NONE',  ( 6.349999999999996980, 6.349999999999996980, -6.349999999999999645 ) ) ;
#137 = AXIS2_PLACEMENT_3D ( 'NONE', #293, #72, #67 ) ;
#138 = CARTESIAN_POINT ( 'NONE',  ( 6.349999999999998757, 6.349999999999998757, 6.349999999999999645 ) ) ;
#139 = CC_DESIGN_PERSON_AND_ORGANIZATION_ASSIGNMENT ( #121, #41, ( #213 ) ) ;
#140 = LINE ( 'NONE', #240, #15 ) ;
#141 = ORIENTED_EDGE ( 'NONE', *, *, #215, .T. ) ;
#142 = ORIENTED_EDGE ( 'NONE', *, *, #296, .F. ) ;
#143 = PERSON_AND_ORGANIZATION ( #3, #22 ) ;
#144 = EDGE_CURVE ( 'NONE', #115, #217, #321, .T. ) ;
#145 = ORIENTED_EDGE ( 'NONE', *, *, #82, .T. ) ;
#146 = DATE_TIME_ROLE ( 'creation_date' ) ;
#147 = CARTESIAN_POINT ( 'NONE',  ( 0.000000000000000000, 0.000000000000000000, 6.349999999999999645 ) ) ;
#148 = COORDINATED_UNIVERSAL_TIME_OFFSET ( 8, 0, .AHEAD. ) ;
#149 = ADVANCED_FACE ( 'NONE', ( #105 ), #206, .F. ) ;
#150 = CC_DESIGN_SECURITY_CLASSIFICATION ( #208, ( #281 ) ) ;
#151 = CC_DESIGN_PERSON_AND_ORGANIZATION_ASSIGNMENT ( #143, #195, ( #281 ) ) ;
#152 = LINE ( 'NONE', #247, #51 ) ;
#153 = APPROVAL_STATUS ( 'not_yet_approved' ) ;
#154 = LINE ( 'NONE', #225, #116 ) ;
#155 = CALENDAR_DATE ( 2020, 22, 12 ) ;
#156 = PLANE ( 'NONE',  #161 ) ;
#157 = CC_DESIGN_DATE_AND_TIME_ASSIGNMENT ( #104, #19, ( #208 ) ) ;
#158 = FACE_OUTER_BOUND ( 'NONE', #192, .T. ) ;
#159 = EDGE_CURVE ( 'NONE', #243, #305, #152, .T. ) ;
#160 = DIRECTION ( 'NONE',  ( 1.000000000000000000, -2.903408047666378392E-16, 0.000000000000000000 ) ) ;
#161 = AXIS2_PLACEMENT_3D ( 'NONE', #299, #298, #46 ) ;
#162 = DIRECTION ( 'NONE',  ( 6.829619984160658046E-17, -1.000000000000000000, 0.000000000000000000 ) ) ;
#163 = DIRECTION ( 'NONE',  ( -0.7071067811865475727, -0.7071067811865475727, 0.000000000000000000 ) ) ;
#164 = ORIENTED_EDGE ( 'NONE', *, *, #159, .F. ) ;
#165 = ORIENTED_EDGE ( 'NONE', *, *, #70, .F. ) ;
#166 = DIRECTION ( 'NONE',  ( 0.000000000000000000, 0.000000000000000000, 1.000000000000000000 ) ) ;
#167 = UNCERTAINTY_MEASURE_WITH_UNIT (LENGTH_MEASURE( 1.000000000000000082E-05 ), #295, 'distance_accuracy_value', 'NONE');
#168 = DIRECTION ( 'NONE',  ( 0.000000000000000000, 0.000000000000000000, 1.000000000000000000 ) ) ;
#169 = ORIENTED_EDGE ( 'NONE', *, *, #98, .T. ) ;
#170 = EDGE_CURVE ( 'NONE', #27, #6, #223, .T. ) ;
#171 = DIRECTION ( 'NONE',  ( -0.7071067811865474617, -0.7071067811865474617, 0.000000000000000000 ) ) ;
#172 = VECTOR ( 'NONE', #163, 999.9999999999998863 ) ;
#173 = ORIENTED_EDGE ( 'NONE', *, *, #184, .F. ) ;
#174 = LINE ( 'NONE', #273, #264 ) ;
#175 = VERTEX_POINT ( 'NONE', #138 ) ;
#176 = APPROVAL_STATUS ( 'not_yet_approved' ) ;
#177 = AXIS2_PLACEMENT_3D ( 'NONE', #9, #266, #168 ) ;
#178 =( GEOMETRIC_REPRESENTATION_CONTEXT ( 3 ) GLOBAL_UNCERTAINTY_ASSIGNED_CONTEXT ( ( #167 ) ) GLOBAL_UNIT_ASSIGNED_CONTEXT ( ( #295, #311, #10 ) ) REPRESENTATION_CONTEXT ( 'NONE', 'WORKASPACE' ) );
#179 = DIRECTION ( 'NONE',  ( -2.220446049250312588E-16, 1.000000000000000000, 0.000000000000000000 ) ) ;
#180 = CARTESIAN_POINT ( 'NONE',  ( 6.349999999999996980, 6.349999999999996980, -6.349999999999999645 ) ) ;
#181 = CALENDAR_DATE ( 2020, 22, 12 ) ;
#182 = DIRECTION ( 'NONE',  ( 1.000000000000000000, 0.000000000000000000, 0.000000000000000000 ) ) ;
#183 = DIRECTION ( 'NONE',  ( -0.7071067811865475727, -0.7071067811865475727, 0.000000000000000000 ) ) ;
#184 = EDGE_CURVE ( 'NONE', #6, #87, #29, .T. ) ;
#185 = CARTESIAN_POINT ( 'NONE',  ( 6.349999999999996980, 6.349999999999996980, 6.349999999999999645 ) ) ;
#186 = COORDINATED_UNIVERSAL_TIME_OFFSET ( 8, 0, .AHEAD. ) ;
#187 = DIRECTION ( 'NONE',  ( -2.220446049250312588E-16, 1.000000000000000000, 0.000000000000000000 ) ) ;
#188 = DIRECTION ( 'NONE',  ( 1.000000000000000000, -2.903408047666378392E-16, 0.000000000000000000 ) ) ;
#189 = CARTESIAN_POINT ( 'NONE',  ( 6.349999999999996980, 6.349999999999996980, -6.349999999999999645 ) ) ;
#190 = DIRECTION ( 'NONE',  ( -0.000000000000000000, 0.000000000000000000, 1.000000000000000000 ) ) ;
#191 = ORIENTED_EDGE ( 'NONE', *, *, #233, .F. ) ;
#192 = EDGE_LOOP ( 'NONE', ( #173, #214, #265, #31 ) ) ;
#193 = ADVANCED_FACE ( 'NONE', ( #109 ), #30, .T. ) ;
#194 = ORIENTED_EDGE ( 'NONE', *, *, #106, .T. ) ;
#195 = PERSON_AND_ORGANIZATION_ROLE ( 'creator' ) ;
#196 = DIRECTION ( 'NONE',  ( 0.000000000000000000, 0.000000000000000000, -1.000000000000000000 ) ) ;
#197 = VECTOR ( 'NONE', #49, 1000.000000000000000 ) ;
#198 = MECHANICAL_CONTEXT ( 'NONE', #246, 'mechanical' ) ;
#199 = DIRECTION ( 'NONE',  ( 0.000000000000000000, 0.000000000000000000, -1.000000000000000000 ) ) ;
#200 = APPROVAL_ROLE ( '' ) ;
#201 = DIRECTION ( 'NONE',  ( 0.7071067811865475727, -0.7071067811865475727, 0.000000000000000000 ) ) ;
#202 = CALENDAR_DATE ( 2020, 22, 12 ) ;
#203 = ADVANCED_FACE ( 'NONE', ( #256 ), #287, .F. ) ;
#204 = DIRECTION ( 'NONE',  ( -1.000000000000000000, 2.903408047666378392E-16, 0.000000000000000000 ) ) ;
#205 = APPROVAL_ROLE ( '' ) ;
#206 = PLANE ( 'NONE',  #253 ) ;
#207 = CALENDAR_DATE ( 2020, 22, 12 ) ;
#208 = SECURITY_CLASSIFICATION ( '', '', #309 ) ;
#209 = DIRECTION ( 'NONE',  ( 0.000000000000000000, 0.000000000000000000, 1.000000000000000000 ) ) ;
#210 = ORIENTED_EDGE ( 'NONE', *, *, #39, .T. ) ;
#211 = CARTESIAN_POINT ( 'NONE',  ( 6.349999999999998757, 6.349999999999998757, 6.349999999999999645 ) ) ;
#212 = ORIENTED_EDGE ( 'NONE', *, *, #128, .F. ) ;
#213 = PRODUCT ( 'BK7-LPBSC-12.7-915', 'BK7-LPBSC-12.7-915', '', ( #198 ) ) ;
#214 = ORIENTED_EDGE ( 'NONE', *, *, #170, .F. ) ;
#215 = EDGE_CURVE ( 'NONE', #87, #305, #107, .T. ) ;
#216 = APPROVAL_PERSON_ORGANIZATION ( #262, #269, #200 ) ;
#217 = VERTEX_POINT ( 'NONE', #84 ) ;
#218 = APPROVAL_DATE_TIME ( #12, #23 ) ;
#219 = CARTESIAN_POINT ( 'NONE',  ( 6.349999999999996980, 6.349999999999996980, 6.349999999999999645 ) ) ;
#220 = PLANE ( 'NONE',  #252 ) ;
#221 = LOCAL_TIME ( 11, 12, 19.00000000000000000, #96 ) ;
#222 = VECTOR ( 'NONE', #183, 999.9999999999998863 ) ;
#223 = LINE ( 'NONE', #100, #118 ) ;
#224 = PERSON_AND_ORGANIZATION_ROLE ( 'design_supplier' ) ;
#225 = CARTESIAN_POINT ( 'NONE',  ( -6.349999999999999645, -6.350000000000000533, -6.349999999999999645 ) ) ;
#226 = ADVANCED_FACE ( 'NONE', ( #255 ), #237, .F. ) ;
#227 = DIRECTION ( 'NONE',  ( 1.000000000000000000, 0.000000000000000000, 0.000000000000000000 ) ) ;
#228 = APPROVAL_STATUS ( 'not_yet_approved' ) ;
#229 = AXIS2_PLACEMENT_3D ( 'NONE', #53, #190, #26 ) ;
#230 = DIRECTION ( 'NONE',  ( -0.000000000000000000, -0.000000000000000000, -1.000000000000000000 ) ) ;
#231 = DIRECTION ( 'NONE',  ( -0.000000000000000000, -0.000000000000000000, -1.000000000000000000 ) ) ;
#232 = DIRECTION ( 'NONE',  ( -6.829619984160658046E-17, 1.000000000000000000, -0.000000000000000000 ) ) ;
#233 = EDGE_CURVE ( 'NONE', #66, #217, #234, .T. ) ;
#234 = LINE ( 'NONE', #304, #133 ) ;
#235 = PRODUCT_DEFINITION ( 'UNKNOWN', '', #281, #11 ) ;
#236 = EDGE_LOOP ( 'NONE', ( #291, #259, #1 ) ) ;
#237 = PLANE ( 'NONE',  #88 ) ;
#238 = EDGE_LOOP ( 'NONE', ( #141, #306, #286 ) ) ;
#239 = ADVANCED_FACE ( 'NONE', ( #55 ), #86, .F. ) ;
#240 = CARTESIAN_POINT ( 'NONE',  ( -6.349999999999998757, -6.349999999999997868, -6.349999999999999645 ) ) ;
#241 = EDGE_LOOP ( 'NONE', ( #260, #242, #33 ) ) ;
#242 = ORIENTED_EDGE ( 'NONE', *, *, #128, .T. ) ;
#243 = VERTEX_POINT ( 'NONE', #111 ) ;
#244 = PERSON_AND_ORGANIZATION_ROLE ( 'classification_officer' ) ;
#245 = CARTESIAN_POINT ( 'NONE',  ( 6.349999999999999645, -6.350000000000000533, 6.349999999999999645 ) ) ;
#246 = APPLICATION_CONTEXT ( 'configuration controlled 3d designs of mechanical parts and assemblies' ) ;
#247 = CARTESIAN_POINT ( 'NONE',  ( -6.349999999999998757, -6.349999999999997868, 6.349999999999999645 ) ) ;
#248 = CC_DESIGN_APPROVAL ( #23, ( #281 ) ) ;
#249 = CARTESIAN_POINT ( 'NONE',  ( 6.349999999999998757, 6.349999999999998757, 6.349999999999999645 ) ) ;
#250 = DIRECTION ( 'NONE',  ( 0.7071067811865474617, 0.7071067811865474617, 0.000000000000000000 ) ) ;
#251 = CARTESIAN_POINT ( 'NONE',  ( 6.349999999999996980, 6.349999999999996980, 6.349999999999999645 ) ) ;
#252 = AXIS2_PLACEMENT_3D ( 'NONE', #147, #102, #227 ) ;
#253 = AXIS2_PLACEMENT_3D ( 'NONE', #71, #270, #40 ) ;
#254 = DIRECTION ( 'NONE',  ( 1.000000000000000000, 0.000000000000000000, 0.000000000000000000 ) ) ;
#255 = FACE_OUTER_BOUND ( 'NONE', #258, .T. ) ;
#256 = FACE_OUTER_BOUND ( 'NONE', #54, .T. ) ;
#257 = CARTESIAN_POINT ( 'NONE',  ( 0.000000000000000000, 0.000000000000000000, -6.349999999999999645 ) ) ;
#258 = EDGE_LOOP ( 'NONE', ( #93, #165, #117, #145 ) ) ;
#259 = ORIENTED_EDGE ( 'NONE', *, *, #123, .F. ) ;
#260 = ORIENTED_EDGE ( 'NONE', *, *, #314, .T. ) ;
#261 = ORIENTED_EDGE ( 'NONE', *, *, #144, .T. ) ;
#262 = PERSON_AND_ORGANIZATION ( #3, #22 ) ;
#263 = AXIS2_PLACEMENT_3D ( 'NONE', #251, #103, #204 ) ;
#264 = VECTOR ( 'NONE', #171, 1000.000000000000114 ) ;
#265 = ORIENTED_EDGE ( 'NONE', *, *, #123, .T. ) ;
#266 = DIRECTION ( 'NONE',  ( 1.000000000000000000, -2.220446049250312588E-16, 0.000000000000000000 ) ) ;
#267 = COORDINATED_UNIVERSAL_TIME_OFFSET ( 8, 0, .AHEAD. ) ;
#268 = AXIS2_PLACEMENT_3D ( 'NONE', #80, #209, #83 ) ;
#269 = APPROVAL ( #176, 'UNSPECIFIED' ) ;
#270 = DIRECTION ( 'NONE',  ( -0.7071067811865475727, 0.7071067811865475727, 0.000000000000000000 ) ) ;
#271 = CALENDAR_DATE ( 2020, 22, 12 ) ;
#272 = LINE ( 'NONE', #77, #222 ) ;
#273 = CARTESIAN_POINT ( 'NONE',  ( 6.349999999999998757, 6.349999999999998757, 6.349999999999999645 ) ) ;
#274 = MANIFOLD_SOLID_BREP ( 'Í¹Ì¨-À', #63 ) ;
#275 = CC_DESIGN_APPROVAL ( #301, ( #208 ) ) ;
#276 = LINE ( 'NONE', #249, #197 ) ;
#277 = APPROVAL_DATE_TIME ( #302, #301 ) ;
#278 = LINE ( 'NONE', #318, #297 ) ;
#279 = CC_DESIGN_PERSON_AND_ORGANIZATION_ASSIGNMENT ( #16, #224, ( #281 ) ) ;
#280 = AXIS2_PLACEMENT_3D ( 'NONE', #24, #201, #250 ) ;
#281 = PRODUCT_DEFINITION_FORMATION_WITH_SPECIFIED_SOURCE ( 'ANY', '', #213, .NOT_KNOWN. ) ;
#282 = DIRECTION ( 'NONE',  ( -2.220446049250312588E-16, 1.000000000000000000, 0.000000000000000000 ) ) ;
#283 = APPLICATION_CONTEXT ( 'configuration controlled 3d designs of mechanical parts and assemblies' ) ;
#284 = EDGE_CURVE ( 'NONE', #91, #66, #56, .T. ) ;
#285 = DIRECTION ( 'NONE',  ( -0.7071067811865474617, -0.7071067811865474617, 0.000000000000000000 ) ) ;
#286 = ORIENTED_EDGE ( 'NONE', *, *, #184, .T. ) ;
#287 = PLANE ( 'NONE',  #229 ) ;
#288 = ORIENTED_EDGE ( 'NONE', *, *, #284, .F. ) ;
#289 = ORIENTED_EDGE ( 'NONE', *, *, #20, .F. ) ;
#290 = PRODUCT_DEFINITION_SHAPE ( 'NONE', 'NONE',  #235 ) ;
#291 = ORIENTED_EDGE ( 'NONE', *, *, #106, .F. ) ;
#292 = EDGE_LOOP ( 'NONE', ( #312, #289, #194, #310 ) ) ;
#293 = CARTESIAN_POINT ( 'NONE',  ( 0.000000000000000000, 0.000000000000000000, 0.000000000000000000 ) ) ;
#294 = ORIENTED_EDGE ( 'NONE', *, *, #170, .T. ) ;
#295 =( LENGTH_UNIT ( ) NAMED_UNIT ( * ) SI_UNIT ( .MILLI., .METRE. ) );
#296 = EDGE_CURVE ( 'NONE', #305, #6, #140, .T. ) ;
#297 = VECTOR ( 'NONE', #127, 1000.000000000000000 ) ;
#298 = DIRECTION ( 'NONE',  ( 0.000000000000000000, 1.000000000000000000, 0.000000000000000000 ) ) ;
#299 = CARTESIAN_POINT ( 'NONE',  ( -6.349999999999999645, -6.350000000000000533, 6.349999999999999645 ) ) ;
#300 = FACE_OUTER_BOUND ( 'NONE', #112, .T. ) ;
#301 = APPROVAL ( #228, 'UNSPECIFIED' ) ;
#302 = DATE_AND_TIME ( #202, #64 ) ;
#303 = LOCAL_TIME ( 11, 12, 19.00000000000000000, #186 ) ;
#304 = CARTESIAN_POINT ( 'NONE',  ( 6.349999999999998757, 6.349999999999998757, -6.349999999999999645 ) ) ;
#305 = VERTEX_POINT ( 'NONE', #52 ) ;
#306 = ORIENTED_EDGE ( 'NONE', *, *, #296, .T. ) ;
#307 = FACE_OUTER_BOUND ( 'NONE', #113, .T. ) ;
#308 = VERTEX_POINT ( 'NONE', #135 ) ;
#309 = SECURITY_CLASSIFICATION_LEVEL ( 'unclassified' ) ;
#310 = ORIENTED_EDGE ( 'NONE', *, *, #159, .T. ) ;
#311 =( NAMED_UNIT ( * ) PLANE_ANGLE_UNIT ( ) SI_UNIT ( $, .RADIAN. ) );
#312 = ORIENTED_EDGE ( 'NONE', *, *, #215, .F. ) ;
#313 = VECTOR ( 'NONE', #231, 1000.000000000000000 ) ;
#314 = EDGE_CURVE ( 'NONE', #175, #115, #174, .T. ) ;
#315 = CC_DESIGN_PERSON_AND_ORGANIZATION_ASSIGNMENT ( #35, #92, ( #235 ) ) ;
#316 = LOCAL_TIME ( 11, 12, 19.00000000000000000, #148 ) ;
#317 = DATE_AND_TIME ( #271, #316 ) ;
#318 = CARTESIAN_POINT ( 'NONE',  ( 6.349999999999998757, 6.349999999999998757, 6.349999999999999645 ) ) ;
#319 = SHAPE_DEFINITION_REPRESENTATION ( #290, #97 ) ;
#320 = PLANE ( 'NONE',  #263 ) ;
#321 = LINE ( 'NONE', #134, #313 ) ;
ENDSEC;
END-ISO-10303-21;
